Everyday Companion Online
QUICK SEARCH



Search Tips
Places To Go
Home
Touring Companion
Today In Panic History

Chords
Home

By Album
Space Wrangler
Widespread Panic
Everyday
Ain't Life Grand
Bombs & Butterflies
Light Fuse, Get Away
'Til The Medicine Takes
Another Joyous Occasion
Don't Tell The Band
DTTB Bonus CD
Live In The Classic City
Ball
Panic in the Streets
Live From the GA Theatre
Night of Joy
Jackassolantern
Uber Cobra
Live at Myrtle Beach
Earth To America
Free Somehow
Dirty Side Down
brute. - Nine High a Pallet
brute. - Co-balt
Michael Houser - Door Harp
Michael Houser - Sandbox
Unreleased Originals
Other People's Songs

Bass Tabs

Overall Listings
All Songs
Originals
Covers

References
Notation Legend

Lyrics
Home

By Album
Space Wrangler
Widespread Panic
Everyday
Ain't Life Grand
Bombs & Butterflies
Light Fuse, Get Away
'Til The Medicine Takes
Another Joyous Occasion
Don't Tell The Band
DTTB Bonus CD
Live In The Classic City
Ball
Panic in the Streets
Live From the GA Theatre
Night of Joy
Jackassolantern
Uber Cobra
Live at Myrtle Beach
Earth To America
Free Somehow
Dirty Side Down
brute. - Nine High a Pallet
brute. - Co-balt
Michael Houser - Sandbox
Unreleased Originals
Other People's Songs

Overall Listings
All Songs
Originals
Covers

Stats
Brief Overview
Overall
Current Tour

Miscellaneous
Song Histories
Discography
Time Line

Song Information
Overview


Event Search
JamBase

An interactive database of band tourdates, links, articles and contact info.
Band:
State:
Date:
Today's Shows
Search

Links
Widespread Panic
Spreadweb
The Sandbox
An Honest Tune
Live Widespread Panic
WSP Traders Club
Panic Stream
Known Soundboards
TapeTracker
Fantasy Tour
Panic Poster Archive

LyricsEverytime PlayedSong History

Over The Hills And Far Away
(Jimmy Page/Robert Plant)
Transcribed by: Jimmy Pena
Josh M. Johnson
~ = vibrato or held note      s = slide
h = hammer on                 p = pull off
b = bend up to indicated pitch/fret
r = release bend to indicated string/fret
/ = slide up from infinity    o  \_
\ = slide down into infinity  o  /   repeat sign

Intro.:
                  G                               D
|-------------------3-3--------------------------2-2----|
|-------------------3-3-3------------------------3-3----|
|o--0h2p0-----0--0--0-0-0----0h2p0---0-4p2p0-----2-2---o|
|o--------4p0----0----0-0----------4---------0---0-0---o|
|----------------2------2-2-----------------------------|
|----------------3--------3-----------------------------|

|--------------------3-3-------------------------2-2--|
|--------------------3-3-3-----------------------3-3--|
|-----------------0--0-0-0--0h2p0----0--4p2p0----2-2--|
|------2---0-2-0--0----0-0---------4----------0--0-0--|
|--0-2---2--------2------2----------------------------|
|-----------------3-----------------------------------|

                 C(add D)   G/B
|------------------------------------------------------|
|---------------3-3-3-----3-3-3-----3-------------/-5--|
|--0h2p0--------0-0-0-----0-0-0-----0--(strum and---0--|
|--------4p0----2-2-2-----0-0-0-----3---slide)----/-5--|
|------------3--3-3-3--2--2-2-2--1--1-------------/-3--|
|------------------------------------------------------|

|-------------------3-3--------------------------2-2----|
|-------------------3-3-3------------------------3-3----|
|o--0h2p0-----0--0--0-0-0----0h2p0---0-4p2p0-----2-2---o|
|o--------4p0----0----0-0----------4---------0---0-0---o|
|----------------2------2-------------------------------|
|----------------3--------------------------------------|

|--------------------3-3-------------------------2-2--|
|--------------------3-3-3-----------------------3-3--|
|-----------------0--0-0-0--0h2p0----0--4p2p0----2-2--|
|------2---0-2-0--0----0-0---------4----------0--0-0--|
|--0-2---2--------2------2----------------------------|
|-----------------3-----------------------------------|

                                              Dsus2
|----------------------------------------2-2-2-0----|
|-----------------3--3-------------------3-3-3-3----|
|--0h2p0----------0--0-------------------2-2-2-2----|
|---------4p0-----2--0------------0-2p0--0-0-0-0----|
|-------------3---3--2-------0--2-------------------|
|-----------------------3--3------------------------|

|--------------------2-2-2-0--|
|--------------------3-3-3-3--|
|--------------------2-2-2-2--|
|------------0--2p0--0-0-0-0--|
|-------0--2------------------|
|--3--3-----------------------|

|--------------------2-2-2--2-2-2--|
|--------------------3-3-3--3-3-3--|
|--------------------2-2-2--2-2-2--|
|------------0--2p0--0-0-0--0-0-0--|
|-------0--2-----------------------|
|--3--3----------------------------|

|-------------------3-3---------------------------2-2--|
|-------------------3-3-3-------------------------3-3--|
|--0h2p0-----0---0--0-0-0--0h2p0---0--4p2p0-------2-2--|
|--------4p0-----0----0-0--------4----------0-----0-0--|
|----------------2------2------------------------------|
|----------------3-------------------------------------|
        Hey, lady,         you got the love I need;

|-------------------3-3----------------0h2-----2--2-2-2--|
|-------------------3-3-----3--5p3-5p3---------3--3-3-3--|
|--0h2p0-----0------0-0--/4--------------------2--2-2-2--|
|--------4p0--------0-0------------------------0--0-0-0--|
|-------------------2-2----------------------------------|
|-------------------3-3----------------------------------|
                   maybe  .....   more than enough.

|-------------------3-3------------|
|-------------------3-3-3----------|
|--0h2p0-----0---0--0-0-0----------|
|--------4p0-----0----0-0----------|
|----------------2------2----------|
|----------------3-----------------|
    Oh,   darlin, darlin' darlin'

|----------------------------2-2--|
|----------------------------3-3--|
|--0h2p0---0--4p2p0----------2-2--|
|--------4----------0--------0-0--|
|---------------------------------|
|---------------------------------|
        walk a while with me.

                                                     (x3)
|------------------------|-------------------2-2-2-0----|
|------------------3--3--|-------------------3-3-3-3----|
|--0h2p0-----------0--0--|o------------------2-2-2-2---o|
|--------4p0-------2--0--|o-----------0-2p0--0-0-0-0---o|
|------------3-----3--2--|-------0-2--------------------|
|------------------------|--3--3------------------------|
                     Oh,           you  got  so much....

    A   G
|---9---7---|
|---10--8---|
|---9---7---|
|-----------|
|-----------|
|-----------|

The part above is played like this:
A A A A \ G G G G G G G G / A A A A
(Just listen to the song, it's not hard to figure out.)

             A
|---3--2--2-------|
|---3--3--3--2----|
|---0--2--2--2----|
|---0--0--0--2----|
|---2--------0----|
|---3-------------|

Verses:
    G(no 3rd)            A(no 3rd)
|-----------------------------------------------|
|-----------------------------------------------|
|-----------------------------------------------|
|-----------------------------------------------|
|---5-5-5-5-5------------7-7-7--9-7--5-5-5-5-5--|
|---3-3-3-3-3------------5-5-5--5-5--3-3-3-3-3--|
 1. Many have I loved,           and many times
 2. Many times I've lied         and many times
 3. Many dreams come true        and some have

|------------3---2--2-----|
|------------3---3--3--2--|
|------------0---2--2--2--|
|------------0---0--0--2--|
|------------2---------0--|
|------------3------------|
 1.  been bitten.
 2.  I've listened.
 3. silver linings.

|-------------------------------------------------|
|-------------------------------------------------|
|-------------------------------------------------|
|-------------------------------------------------|
|---5-5-5-5-5------------7-7-7--9-7--5-5-5-5-5----|
|---3-3-3-3-3------------5-5-5--5-5--3-3-3-3-3----|
 1. Many times I've  gazed        along the  open
 2. Many times I've wondered      how much there
 3. I live for my dream           and a pocketful

|------------------------|-----------------------| Play the
|------------------------|-----------------------| A/G riff
|o-----------------------|----------------------o| above
|o-----------------------|----------------------o| over this
|---------5---5-5---5h7--|--------5---5-5---5----| part
|---5-5-7---7-----7------|--5-5-7---7-----7---7--|
 1. road.
 2. is to know.
___________________
| 1.2.            |    You play the above in number order.
|---3--2--2-------|    Obviously, play all of number 1
|---3--3--3--2----|    first, the return to the beginning
|---0--2--2--2----|    and play number 2, then back to
|---0--0--0--2----|    start and play number 3 and continue
|---2--------0----|
|---3-------------|

___________________________
|3.                        |
|--------------------------|
|--------------------------|
|--------------------------|
|--------------------------|
|---------7-7-7-9-7--------|
|---------5-5-5-5-5--------|
3. of gold.

    G       D           A5  E
|---3--3-3--2--2-2---2------0-----|
|---3--3-3--3--3-3---3------0-----|
|---0--0-0--2--2-2---2--2---1-----|
|---0--0-0--0--0-0---0--2---2-----|
|---2--2-2--------------0---2-----|
|---3--3-3------------------0-----|

|--------10------------------------------------------------|
|--10b12~~~~10b12r10--------10-----------------------9-----|
|----------------------9b11~~~~9b11r9-------9---7---11b13--|
|---------------------------------------7h9---9------------|
|----------------------------------------------------------|
|----------------------------------------------------------|

|--------10------------------------------------------0-----|
|--10h12~~~~10h12p10--------10----------------------7b9----|
|----------------------9h11----9h11p9-------9---7----------|
|---------------------------------------7h9---9------------|
|----------------------------------------------------------|
|----------------------------------------------------------|

Guitar Solo:
|----------------|---------------------------|
|-----------5----|---------------------------|
|--4b6~--4b6~r4--|--4b6r4b6r4b6r4--2~--------|
|----------------|----------------------2-4--|
|----------------|---------------------------|
|----------------|---------------------------|

|--------------------------|-------------------------------|
|--------------------------|-------------------------------|
|-----------------2--------|-------------------------------|
|-2-4--2-4--2-4-2---4~--2--|--4p2---2----------------------|
|--------------------------|------4--4-2-4-2---------------|
|--------------------------|-----------------4-5-2-0-2-0-0-|

|---------------|--------------------|----14--14---19b21~-|
|---------------|--------------------|-17---17--17--------|
|---------------|--------------16b18-|--------------------|
|---------------|--------------------|--------------------|
|---------------|--------------------|--------------------|
|-2-2-2-2/7b8b9-|-2p0-2-2-0h2~-------|--------------------|

|--18-16-14----14--14-------17---------17-------|
|-----------17---17---17b19----17-17b19--17-17--|
|-----------------------------------------------|
|-----------------------------------------------|
|-----------------------------------------------|
|-----------------------------------------------|

|-------17-----------17-----------17------------17-------|
|--17b19--17-17-17b19--17-17-17b19--17-17-17b19---17-17--|
|--------------------------------------------------------|
|--------------------------------------------------------|
|--------------------------------------------------------|
|--------------------------------------------------------|

|-------17--------------------------------------|
|--17b19--17b19-17-16p15--14--------------------|
|-----------------------17--17-16-14--16p14-14--|
|-----------------------------------16----------|
|-----------------------------------------------|
|-----------------------------------------------|

|-------------------------------------|--------------------|
|-------------------------------------|--------------------|
|--14-14b15--------14-14b15-----------|--------------------|
|----------16-14-16---------16-14-16--|--16p15p14----(14)--|
|-------------------------------------|--------------------|
|-------------------------------------|--------------------|

|------------------------------4-------------------16--18\-|
|---------------------------5------------------17----------|
|---------------1--3-3-3-6-------15-15-15--18--------------|
|------------2---------------------------------------------|
|--1-1-1-4-------------------------------------------------|
|----------------------------------------------------------|


|----------------------|---------------------|-3--2--2----|
|----------------------|---------------------|-3--3--3--2-|
|o---------------------|--------------------o|-0--2--2--2-|
|o---------------------|--------------------o|-0--0--0--2-|
|--------5---5-5---5h7-|-------5---5-5---5---|-2--------0-|
|--5-5-7---7-----7-----|-5-5-7---7-----7---7-|-3----------|

|--------------------------------------------|
|--------------------------------------------|
|--------------------------------------------|
|--------------------------------------------|
|---5-5-5-5-5--------7-7-7--9-7--5-5-5-5-5---|
|---3-3-3-3-3--------5-5-5--5-5--3-3-3-3-3---|
 4. Mellow is the man       who knows what
 5. Many is a word          that only leaves

|-----------3--2--2-----|
|-----------3--3--3--2--|
|-----------0--2--2--2--|
|-----------0--0--0--2--|
|-----------2--------0--|
|-----------3-----------|
 4. he's been missin'
 5.   you guessin'

|------------------------------------------------|
|------------------------------------------------|
|------------------------------------------------|
|------------------------------------------------|
|---5-5-5-5-5------------7-7-7--9-7--5-5-5-5-5---|
|---3-3-3-3-3------------5-5-5--5-5--3-3-3-3-3---|
 4. Many, many men                 can't see the
 5. guessin' 'bout a thing        you really ought

4th verse:
|-------------------------------|------------------------|
|-------------------------------|------------------------|
|o------------------------------|-----------------------o|
|o------------------------------|-----------------------o|
|----------------5---5-5---5h7--|--------5---5-5---5-----|
|----------5-5-7---7-----7------|--5-5-7---7-----7---7---|
 4. open road.

|---3--2--2-------|
|---3--3--3--2----|
|---0--2--2--2----|
|---0--0--0--2----|
|---2--------0----|
|---3-------------|

5th verse:
|------------------------2--|--------------------3---|
|------------------------3--|--------------------0---|
|------------------------2--|--------------------0---|
|-------------0-2-0------0--|----------0-2-0-----0---|
|---------0-2-------2-0-----|------0-2-------2-0-----|
|-----3-3-------------------|--3-3-------------------|
5. to know.

Play the above a *TOTAL* of 10 times while fading,
and then, very softly, play this:

(Some sort of organ/piano arr. for guitar)

|--------------------2-|-------------|---------------------|
|--------------------3-|-------------|---------------------|
|--------------------2-|-0h2p0-----0~|-0h2p0---0--4p2p0----|
|---------0-2-0------0-|-------4p0---|-------4----------0~-|
|-----0-2-------2-0----|-------------|---------------------|
|-3-3------------------|-------------|---------------------|

|---------------|---------------|
|---------------|---------------|
|--0h2p0------0~|---------------|
|--------4p0----|-----0h2--2h4~-|
|---------------|-0h2-----------|
|---------------|---------------|

                 G     C     D
|----------------3--3--0--0--2~--|
|----------------3--3--1--1--3~--|
|-0h2p0-----0~---0--0--0--0--2~--|
|-------4p0------0--0--2--2--0~--|
|----------------2--2--3--3------|
|----------------3--3------------|

              Csus2    G/B
|--------------------3-------3--|
|------------------3-------3----|
|--0h2p0---------0-------0------|
|---------4p0-------------------|
|--------------3~------2~-------|
|-------------------------------|

   Gm/B           Csus2            G
|----------3-----------3-------3---3--|
|------3-------3-----------3---3---3--|
|----0---0---0---0---0---0---0---0-0--|
|----------------------------------0--|
|--1~--------------3~--------------2--|
|----------------------------------3--|


added:2/16/1999

DuckRock
Additions/Comments to: Feedback
Copyright © 1995-2016 by DuckRock Productions. All rights reserved.
The lists and information on this site are for personal use only. They may not be distributed in any manner without the written permission of DuckRock Productions. We have spent thousands of hours compiling and verifying this information. Please don't rip us off. This site is not affiliated with, or endorsed by, Widespread Panic, Sanctuary Records or Brown Cat (but we think they are nifty bunch of folks anyway).