Everyday Companion Online
QUICK SEARCH



Search Tips
Places To Go
Home
Touring Companion
Today In Panic History

Chords
Home

By Album
Space Wrangler
Widespread Panic
Everyday
Ain't Life Grand
Bombs & Butterflies
Light Fuse, Get Away
'Til The Medicine Takes
Another Joyous Occasion
Don't Tell The Band
DTTB Bonus CD
Live In The Classic City
Ball
Panic in the Streets
Live From the GA Theatre
Night of Joy
Jackassolantern
Uber Cobra
Live at Myrtle Beach
Earth To America
Free Somehow
Dirty Side Down
brute. - Nine High a Pallet
brute. - Co-balt
Michael Houser - Door Harp
Michael Houser - Sandbox
Unreleased Originals
Other People's Songs

Bass Tabs

Overall Listings
All Songs
Originals
Covers

References
Notation Legend

Lyrics
Home

By Album
Space Wrangler
Widespread Panic
Everyday
Ain't Life Grand
Bombs & Butterflies
Light Fuse, Get Away
'Til The Medicine Takes
Another Joyous Occasion
Don't Tell The Band
DTTB Bonus CD
Live In The Classic City
Ball
Panic in the Streets
Live From the GA Theatre
Night of Joy
Jackassolantern
Uber Cobra
Live at Myrtle Beach
Earth To America
Free Somehow
Dirty Side Down
brute. - Nine High a Pallet
brute. - Co-balt
Michael Houser - Sandbox
Unreleased Originals
Other People's Songs

Overall Listings
All Songs
Originals
Covers

Stats
Brief Overview
Overall
Current Tour

Miscellaneous
Song Histories
Discography
Time Line

Song Information
Overview


Event Search
JamBase

An interactive database of band tourdates, links, articles and contact info.
Band:
State:
Date:
Today's Shows
Search

Links
Widespread Panic
Spreadweb
The Sandbox
An Honest Tune
Live Widespread Panic
WSP Traders Club
Panic Stream
Known Soundboards
TapeTracker
Fantasy Tour
Panic Poster Archive

LyricsEverytime PlayedSong History

Airplane
Lyrics transcribed by: Brian Whitman
Daniel Gold
Music transcribed by: Scott Holcomb
Pete Millett
Brandon Clements
The following riffs are played during the verses:

Mikey's Main Riff:
|------------------|-----------------|
|------------------|-----------------|
|----------0-------|---0-----0---2---|
|----3-------0-----|-----3---------3-|
|------3---------0-|-1-----3---3-----|
|--1-----3-----3---|-----------------|
   F     G           Bb    C

J.B.'s Main Riff:
|-----------------|--------------------|
|-----------------|--------------------|
|-----0------0----|-----0--------2-----|
|--3-------3------|---3---3----3---3---|
|----0---------0--|--1-------/3--------|
|--1-------3------|--------------------|
   F       G         Bb       C
       keep your pinky finger on the D string/4th fret

Verse 1:
F   G        Bb     C              F        G  Bb  C
    Sittin' around, waiting for an airplane
F       G           Bb       C       F    G  Bb  C
  Don't know how to fly, but that's okay
F   G        Bb     C           F      G  Bb  C
    Got me a pilot, she's going my way
F    G         Bb        C         F     G  Bb  C
  If she's got wings, if she's got wings

Verse 2:
Sittin' around, waiting for the mailman
I don't how he could be so slow
My good friend said you wrote me a letter
Must have been a year ago

Chorus:
F  C  G                           C  F
         Well, I've got a feeling
F  C  G                           G#  G
         That I should be leaving out

Verse 3:
Sittin' around, watching the rainfall
I don't know how it could rain so long
They say the ocean, she is a woman
Who waits for her man to come home

(Chorus) ->  F  G  G#

Solo:
|-----------------|-----------------|-------------|
|-----------------|-----------------|-6--6--6--6--|
|--h---------h----|-------6---6---6-|-------------|
|-6^8-8--8--6^8-6-|---6-8-------8---|-------------|
|-----------------|-----------------|-------------|
|-----------------|-----------------|-------------|
   Bb                        D#  D#    Bb

|--------------|--------------|------------------|
|-6--6--6.-----|--------------|----------------6-|
|--------8--8--|-6-86.---86.--|-86.-------6--68.-|
|--------------|-----8-----8--|---8--8--68.------|
|--------------|--------------|------------------|
|--------------|--------------|------------------|
         G#  G#   Bb                      D#  D#

|---------------|-----9-s-13-13s11-10-|
|-669.-69.6-9s11|-9-11.---------------|
|----8---8------|---------------------|
|---------------|---------------------|
|---------------|---------------------|
|---------------|---------------------|
    Bb

   note: h's indicate hammer-on, s is a quick slide,
         and if you see three notes close together,
         play them quickly (refer to album)

G                C
Well, I've got a feeling      -|
G                F             | (3x)
That I should be leaving out  -|

G                C
Well, I've got a feeling
G                F
That I should be leaving

Verse 1 repeated:
Sittin' around, waiting for an airplane
Don't know how to fly, but that's okay
I got me a pilot, she's going my way
If she's got wings, if she's got wings (x3)

"Takeoff" Jam is over an F chord (key of F)


previous track:
Ain't Life Grand
next track:
Can't Get High
Album
<--Ain't Life Grand-->


last updated:11/11/2005

DuckRock
Additions/Comments to: Feedback
Copyright © 1995-2017 by DuckRock Productions. All rights reserved.
The lists and information on this site are for personal use only. They may not be distributed in any manner without the written permission of DuckRock Productions. We have spent thousands of hours compiling and verifying this information. Please don't rip us off. This site is not affiliated with, or endorsed by, Widespread Panic, Sanctuary Records or Brown Cat (but we think they are nifty bunch of folks anyway).