Everyday Companion Online
QUICK SEARCH



Search Tips
Places To Go
Home
Touring Companion
Today In Panic History

Chords
Home

By Album
Space Wrangler
Widespread Panic
Everyday
Ain't Life Grand
Bombs & Butterflies
Light Fuse, Get Away
'Til The Medicine Takes
Another Joyous Occasion
Don't Tell The Band
DTTB Bonus CD
Live In The Classic City
Ball
Panic in the Streets
Live From the GA Theatre
Night of Joy
Jackassolantern
Uber Cobra
Live at Myrtle Beach
Earth To America
Free Somehow
Dirty Side Down
brute. - Nine High a Pallet
brute. - Co-balt
Michael Houser - Door Harp
Michael Houser - Sandbox
Unreleased Originals
Other People's Songs

Bass Tabs

Overall Listings
All Songs
Originals
Covers

References
Notation Legend

Lyrics
Home

By Album
Space Wrangler
Widespread Panic
Everyday
Ain't Life Grand
Bombs & Butterflies
Light Fuse, Get Away
'Til The Medicine Takes
Another Joyous Occasion
Don't Tell The Band
DTTB Bonus CD
Live In The Classic City
Ball
Panic in the Streets
Live From the GA Theatre
Night of Joy
Jackassolantern
Uber Cobra
Live at Myrtle Beach
Earth To America
Free Somehow
Dirty Side Down
brute. - Nine High a Pallet
brute. - Co-balt
Michael Houser - Sandbox
Unreleased Originals
Other People's Songs

Overall Listings
All Songs
Originals
Covers

Stats
Brief Overview
Overall
Current Tour

Miscellaneous
Song Histories
Discography
Time Line

Song Information
Overview


Event Search
JamBase

An interactive database of band tourdates, links, articles and contact info.
Band:
State:
Date:
Today's Shows
Search

Links
Widespread Panic
Spreadweb
The Sandbox
An Honest Tune
Live Widespread Panic
WSP Traders Club
Panic Stream
Known Soundboards
TapeTracker
Fantasy Tour
Panic Poster Archive

LyricsEverytime PlayedSong History

Black Sabbath
(Black Sabbath: Tony Iommi / Bill Ward / Ozzy Osbourne / Geezer Butler)
Transcribed by: Scott Holcomb
Part 1 (slowly):
    /  /  /  /  |  /  /  /  /                              |
|---------------|------------------------------------------|
|---------------|------------------------------------------|
|---------------|------------------------------------------|
|---------4-----|------------------------------------------|
|---------------|--3---(2^3-trill-if-you're-in-the-mood)---|
|---2-----------|------------------------------------------|
    F#             C

What is this that stands before me?
Figure in black which points at me.
Turn 'round quick and start to run.
Find out I'm the chosen one.

No no, please God help me!

Big, black shape with eyes of fire.
Telling people their desire.
Satan's sitting there, he's smiling.
Watch as those flames get higher and higher.

No no, please God help me!

Part 2 (must faster):
|   /     /     /     /       |
|-----------------------------|
|-----------------------------|
|-----------------------------|
|-----------------------------|
|---------0-2-0-4-2-4-0-2-0---|
|---2-2-2---------------------|

Age of the end my friend.
Satan's coming 'round the bend.
People running 'cause they're scared.
You people better go and beware.

No, no, please God help me!

Final Jam:
| /  /  /  / | / / / / | / / / / | / / /  / |
| F#         | E       | D#      | D        |

Finale:
| /        /  /  /      | /  /  /  / |
| F#   E   F#    F#   E | F#         |

To stay true to the 10/31/92 version,
finish off with an 'Iron Man' Jam:
|   /   /  /  /     /  /  /  /
|------------------------------|
|------------------------------|
|.--9-7-9-------7^9^7----------|
|.-----------------------------|
|------------------------------|
|------------------------------|
    F#          E

|  /   /  /  /   /  /  /     /     |(x4)
|----------------------------------|
|----------------7-8-7-8-7^8^7-----|
|--9-7-9-----------------------7--.|
|---------------------------------.|
|----------------------------------|
|----------------------------------|
   D#            D

| /       /   /  / |
| F#  E   F#       |


last updated:11/7/1998

DuckRock
Additions/Comments to: Feedback
Copyright © 1995-2016 by DuckRock Productions. All rights reserved.
The lists and information on this site are for personal use only. They may not be distributed in any manner without the written permission of DuckRock Productions. We have spent thousands of hours compiling and verifying this information. Please don't rip us off. This site is not affiliated with, or endorsed by, Widespread Panic, Sanctuary Records or Brown Cat (but we think they are nifty bunch of folks anyway).