Everyday Companion Online
QUICK SEARCH



Search Tips
Places To Go
Home
Touring Companion
Today In Panic History

Chords
Home

By Album
Space Wrangler
Widespread Panic
Everyday
Ain't Life Grand
Bombs & Butterflies
Light Fuse, Get Away
'Til The Medicine Takes
Another Joyous Occasion
Don't Tell The Band
DTTB Bonus CD
Live In The Classic City
Ball
Panic in the Streets
Live From the GA Theatre
Night of Joy
Jackassolantern
Uber Cobra
Live at Myrtle Beach
Earth To America
Free Somehow
Dirty Side Down
brute. - Nine High a Pallet
brute. - Co-balt
Michael Houser - Door Harp
Michael Houser - Sandbox
Unreleased Originals
Other People's Songs

Bass Tabs

Overall Listings
All Songs
Originals
Covers

References
Notation Legend

Lyrics
Home

By Album
Space Wrangler
Widespread Panic
Everyday
Ain't Life Grand
Bombs & Butterflies
Light Fuse, Get Away
'Til The Medicine Takes
Another Joyous Occasion
Don't Tell The Band
DTTB Bonus CD
Live In The Classic City
Ball
Panic in the Streets
Live From the GA Theatre
Night of Joy
Jackassolantern
Uber Cobra
Live at Myrtle Beach
Earth To America
Free Somehow
Dirty Side Down
brute. - Nine High a Pallet
brute. - Co-balt
Michael Houser - Sandbox
Unreleased Originals
Other People's Songs

Overall Listings
All Songs
Originals
Covers

Stats
Brief Overview
Overall
Current Tour

Miscellaneous
Song Histories
Discography
Time Line

Song Information
Overview


Event Search
JamBase

An interactive database of band tourdates, links, articles and contact info.
Band:
State:
Date:
Today's Shows
Search

Links
Widespread Panic
Spreadweb
The Sandbox
An Honest Tune
Live Widespread Panic
WSP Traders Club
Panic Stream
Known Soundboards
TapeTracker
Fantasy Tour
Panic Poster Archive

LyricsEverytime PlayedSong History

Junior
(Junior Kimbrough, arr. by Widespread Panic)
Lyrics transcribed by: Brian Whitman
Music transcribed by: Scott Holcomb
Pete Millett
Intro:
  1 & 2 & 3 & 4 &  |  1  2      3 & 4 &  |
|------------------|---------------------|
|------------------|---------------------|
|------------------|---------------------|
|-----------3---3--|--5----t------3---3--|
|-----------3---3--|--5---/ \---1-3---3--|
|-----------1---1--|--3--3-1-3----1---1--|
            F   F     Gm          F   F

|  1 & 2 & 3 & 4 &  |  1   2     3
|-------------------|---------------|
|-------------------|---------------|
|-------------------|---------------|
|--5-0-0-0---3---3--|--5----t-------|
|--3-------3-3---3--|--5---/ \---1--|
|--3---------1---1--|--3--3-1-3-----|
   Gm        F   F     Gm


little groove over the Gm for 2 measures, then....

Main Riff:
   1   2  & 3 4 & | 1 2 & 3 & 4 &  |
|-----------------|----------------|
|-----------------|----------------|
|.-3--------------|---------------.|
|.-3---5--5-------|-0-------------.|
|--1---5--5-------|---3-1-3-1------|
|------3--3---1-3-|-----------3-1--|
   Bb  Gm Gm        Dm    C

Main Riff {JB part}:
|----------------------------------------------|
|---3----------------3----------------3--------|
|---3----------------3----------------3--------|
|-----5-5------3^5-3---5-5v-----3^5-3---5-5v---|
|----------3^5---------------3^5---------------|
|----------------------------------------------|

Theme 1 {played over verse lyrics}:
|---------------------|-----------------------------------|
|-----6---------3-----|----------3-----------------3------|
|-5/7---7---3^5---5-3-|----------3-----------------3------|
|---------------------|----3^5-3---5-5v------3^5-3---5-5v-|
|---------------------|-3^5---------------3^5-------------|
|---------------------|-----------------------------------|
                     2x ->
Verse 1:
Dm                    C
Hold me tight, if you want me to
Dm                   C
Hold me darling, you want me to
  Bb   Gm  Gm       Bb   Gm  Gm   (with main riff)
I love you child, I love you babe

Verse 2:
I love your mamma, your sister too
I love your dog, I hope he love me too
I love you child, I swear I love you baby

Verse 3:
Love your mamma, your sister too
Love your dog, I hope he love me too
I love you babe, love you child

Verse 4:
I love you mamma, your daddy too
You showed me the world, when I was only two
I love you babe, I love you child

I love you since you were born
I love you more and more and more

(he begins mumbling here...)

Jam is over the Dm > C riff, and so is much of JB rumblings.
Listen to the album to get a good feel.  Once you get the
groove in ya, it oughta work.


previous track:
Raise The Roof
next track:
L.a.
Album
<--Ain't Life Grand-->


last updated:8/8/1998

DuckRock
Additions/Comments to: Feedback
Copyright © 1995-2016 by DuckRock Productions. All rights reserved.
The lists and information on this site are for personal use only. They may not be distributed in any manner without the written permission of DuckRock Productions. We have spent thousands of hours compiling and verifying this information. Please don't rip us off. This site is not affiliated with, or endorsed by, Widespread Panic, Sanctuary Records or Brown Cat (but we think they are nifty bunch of folks anyway).