Everyday Companion Online
QUICK SEARCH



Search Tips
Places To Go
Home
Touring Companion
Today In Panic History

Chords
Home

By Album
Space Wrangler
Widespread Panic
Everyday
Ain't Life Grand
Bombs & Butterflies
Light Fuse, Get Away
'Til The Medicine Takes
Another Joyous Occasion
Don't Tell The Band
DTTB Bonus CD
Live In The Classic City
Ball
Panic in the Streets
Live From the GA Theatre
Night of Joy
Jackassolantern
Uber Cobra
Live at Myrtle Beach
Earth To America
Free Somehow
Dirty Side Down
brute. - Nine High a Pallet
brute. - Co-balt
Michael Houser - Door Harp
Michael Houser - Sandbox
Unreleased Originals
Other People's Songs

Bass Tabs

Overall Listings
All Songs
Originals
Covers

References
Notation Legend

Lyrics
Home

By Album
Space Wrangler
Widespread Panic
Everyday
Ain't Life Grand
Bombs & Butterflies
Light Fuse, Get Away
'Til The Medicine Takes
Another Joyous Occasion
Don't Tell The Band
DTTB Bonus CD
Live In The Classic City
Ball
Panic in the Streets
Live From the GA Theatre
Night of Joy
Jackassolantern
Uber Cobra
Live at Myrtle Beach
Earth To America
Free Somehow
Dirty Side Down
brute. - Nine High a Pallet
brute. - Co-balt
Michael Houser - Sandbox
Unreleased Originals
Other People's Songs

Overall Listings
All Songs
Originals
Covers

Stats
Brief Overview
Overall
Current Tour

Miscellaneous
Song Histories
Discography
Time Line

Song Information
Overview


Event Search
JamBase

An interactive database of band tourdates, links, articles and contact info.
Band:
State:
Date:
Today's Shows
Search

Links
Widespread Panic
Spreadweb
The Sandbox
An Honest Tune
Live Widespread Panic
WSP Traders Club
Panic Stream
Known Soundboards
TapeTracker
Fantasy Tour
Panic Poster Archive

LyricsEverytime PlayedSong History

Last Dance
(Neil Young)
Lyrics taken from the Neil Young Home Page
Music transcribed by: Scott Holcomb
Intro/Chorus:
    Bm                      (3x)  C         D
    /   /   /   /       / / / /   / / / /   / / / /
|---------------------|---------|-0-------|-2-------|
|---------------------|---------|-1-------|-3-------|
|.--4-4---4---4---4---|-4------.|-0-------|-2-------|
|.--4-4---4---4---4---|-4------.|-2-------|-0-0-----|
|---2-2---2---2---2---|-2-------|-3-3-2-0-|-----3-2-|
|---------------------|---------|---------|---------|

Main Theme (played over verses and fills):
  E7 E  E7 E           G   A     E7 E  E7 E         G   A
|--0-0---0-0-----------3---5--  --0-0---0-0---------3---5--|
|--0-0---0-0-----------3---5--  --0-0---0-0---------3---5--|
|--1-1---1-1-----------4---6--OR--1-1---1-1---------4---6--|
|--0h2---0h2------0----5---7--  --0h2---0h2--2p0----5---7--|
|--2-2---2-2--0h2---2--5---7--  --2-2---2-2------2--5---7--|
|--0-0---0-0-----------3---5--  --0-0---0-0---------3---5--|

Verse 1:
E                 G      A
  Wake up! It's a Monday morning
E                 G       A
  No time left to say goodbye
E                       G          A
  Can't breathe and the lights are changing.

Chorus:
Bm                    Bm
   You can live your own life
Bm           C  D
   Making it happen
Bm                 Bm
   Working on your own time
Bm               C    D
   Laid back and laughin'
C
Oh no, oh no.

Verse 2:
Headlights, make it home by sundown
Feeling that the day is through
Return back to where you come from

(Chorus)

(Jam over the Main Theme)

Verse 3:
You wake up in the mornin'
And the sun's comin' up.
Its been up for hours and hours and hours
And hours and hours and hours
It's been up for hours and hours and hours
And you light up the stove
And the coffee cup, its hot.
And the orange juice is cold, cold, cold
Monday morning,
Wake up, wake up, wake up, wake up
Its time to go,
Time to go to work.

(Chorus)

C (4 bars with no rhythm)
    Oh no, oh no
C (8 bars over a 4/4 rhythm)
No, no, no (4x)

Finale:
   Bm                     (3x)  C         D         E  big
   /   /   /   /      / / / /   / / / /   / / / /   / ending
|-------------------|---------|-0-------|-2-------|-0-------
|-------------------|---------|-1-------|-3-------|-0-------
|.-4-4---4---4---4--|-4------.|-0-------|-2-------|-1-------
|.-4-4---4---4---4--|-4------.|-2-------|-0-0-----|-2-------
|--2-2---2---2---2--|-2-------|-3-3-2-0-|-----3-2-|-2-------
|-------------------|---------|---------|---------|-0-------


last updated:8/8/1998

DuckRock
Additions/Comments to: Feedback
Copyright © 1995-2017 by DuckRock Productions. All rights reserved.
The lists and information on this site are for personal use only. They may not be distributed in any manner without the written permission of DuckRock Productions. We have spent thousands of hours compiling and verifying this information. Please don't rip us off. This site is not affiliated with, or endorsed by, Widespread Panic, Sanctuary Records or Brown Cat (but we think they are nifty bunch of folks anyway).