Everyday Companion Online
QUICK SEARCH



Search Tips
Places To Go
Home
Touring Companion
Today In Panic History

Chords
Home

By Album
Space Wrangler
Widespread Panic
Everyday
Ain't Life Grand
Bombs & Butterflies
Light Fuse, Get Away
'Til The Medicine Takes
Another Joyous Occasion
Don't Tell The Band
DTTB Bonus CD
Live In The Classic City
Ball
Panic in the Streets
Live From the GA Theatre
Night of Joy
Jackassolantern
Uber Cobra
Live at Myrtle Beach
Earth To America
Free Somehow
Dirty Side Down
brute. - Nine High a Pallet
brute. - Co-balt
Michael Houser - Door Harp
Michael Houser - Sandbox
Unreleased Originals
Other People's Songs

Bass Tabs

Overall Listings
All Songs
Originals
Covers

References
Notation Legend

Lyrics
Home

By Album
Space Wrangler
Widespread Panic
Everyday
Ain't Life Grand
Bombs & Butterflies
Light Fuse, Get Away
'Til The Medicine Takes
Another Joyous Occasion
Don't Tell The Band
DTTB Bonus CD
Live In The Classic City
Ball
Panic in the Streets
Live From the GA Theatre
Night of Joy
Jackassolantern
Uber Cobra
Live at Myrtle Beach
Earth To America
Free Somehow
Dirty Side Down
brute. - Nine High a Pallet
brute. - Co-balt
Michael Houser - Sandbox
Unreleased Originals
Other People's Songs

Overall Listings
All Songs
Originals
Covers

Stats
Brief Overview
Overall
Current Tour

Miscellaneous
Song Histories
Discography
Time Line

Song Information
Overview


Event Search
JamBase

An interactive database of band tourdates, links, articles and contact info.
Band:
State:
Date:
Today's Shows
Search

Links
Widespread Panic
Spreadweb
The Sandbox
An Honest Tune
Live Widespread Panic
WSP Traders Club
Panic Stream
Known Soundboards
TapeTracker
Fantasy Tour
Panic Poster Archive

LyricsEverytime PlayedSong History

Morning Dew
(Bonnie Dobson)
Transcription taken from Ed Bick's Tab Site
(^) Slide Up  (\) Slide Down  (h) Hammer On
(p) Pull Off  (b) Bend

Intro:
|-----2-|-------|------|------------------|
|-----3-|-------|------|------------------|
|-----2-|-------|------|------------------|
|-----0-|-------|----3-|-------------2--0-|
|-------|-0-2-3-|-3----|-------0--3-------|
|-------|-------|------|-1--3-------------|
      D       C      F                  D

|-------------------|-----------------------|
|------------3p1--3-|-------1-------1-------|
|---2p0--2----------|--0h2-----0h2----0h2---|
|-------------------|----------------------0|
|-------------------|-----------------------|
|-------------------|-----------------------|

|-----10p8--10---8---8p7-----7h8--7--------------|
|------------------------------------10--8--10---|
|------------------------------------------------|
|------------------------------------------------|
|------------------------------------------------|
|------------------------------------------------|
    D          C             F              D

Verse 1:
D                  C       G      D
Walk me out in the morning dew my honey,
D                  C       G     D
Walk me out in the morning dew today.
F                           C       Em     D
I can't walk you out in the morning dew my honey,
F                           C       Em    D
I can't walk you out in the morning dew today.

Verse 2:
I thought I heard a baby cry this morning,
I thought I heard a baby cry this today.
You didn't hear no baby cry this morning,
You didn't hear no baby cry today.

Verse 3:
Where have all the people gone my honey,
Where have all the people gone today.
There's no need for you to be worrying about
   all those people,
You never see those people anyway.

Verse 4:
I thought I heard a young man moan this morning,
I thought I heard a young man moan today.
I thought I heard a young man moan this morning,
I can't walk you out in the morning dew today.

|--------------------------------------|
|--------------------------------------|
|---------------------------6--7--7^9--|
|--0--2--4--5^7--10--7--10-------------|
|--------------------------------------|
|--------------------------------------|

                          D (BOLD,
                          HARD, STROKE)
|--------------8----8--9--10--|
|--7--8--8^10----10-------10--|
|-------------------------11--|
|-------------------------12--|
|-------------------------12--|
|-------------------------10--|

Guitar 2 - 2X

                                D (BOLD, HARD, STROKE)
|-------------------------------2--|
|-------------------------------3--|
|-------------------------------2--|
|--0-2---0----------------------0--|
|----3---2-----0--3--0--3--4-------|
|------------3---------------------|

Verse 5:
Walk me out in the morning dew my honey,
Walk me out in the morning dew today.
I'll walk you out in the morning dew my honey,
I guess it doesn't really matter anyway,
I guess it doesn't matter anyway,
I guess it doesn't matter anyway,
Guess it doesn't matter anyway.


added:8/3/1999

DuckRock
Additions/Comments to: Feedback
Copyright © 1995-2016 by DuckRock Productions. All rights reserved.
The lists and information on this site are for personal use only. They may not be distributed in any manner without the written permission of DuckRock Productions. We have spent thousands of hours compiling and verifying this information. Please don't rip us off. This site is not affiliated with, or endorsed by, Widespread Panic, Sanctuary Records or Brown Cat (but we think they are nifty bunch of folks anyway).